?

Log in

No account? Create an account

[icon] kats new song new edited version - Col, Linda and Kat
View:Recent Entries.
View:Archive.
View:Friends.
View:Profile.

Security:
Subject:kats new song new edited version
Time:07:45 am
edited
new song from kat
hmm not sure about the music just yet imstill working on it (since i have had so much time on my hands ive been trying to write quite a bit)
anyhu so ya this is a song by kat
i like the chours chord progression but im not sure about the verse chord bit ??
help col ??
love the new chours by the way col *thumbs up* :)

anyway heres the song

(no name yet)-should that be the name of the songs ??? or unnamed song ?????


INTRO
A B
|-------------------------------------------------------------------------------------------------|
|-------------------------------------------------------------------------------------------------|
|------------5-----------------------------5--------------------------8-------------------------|
|-------7--------7-------------------7--------7----7--------9----------9---------------9------|
|----7----7---------7------------7----7---------7--------9----9----------9---------9-----9--|
|-5----------------------5--5--------------------------7-----------------------7--7------------|
C D
|-------------------------------------------------------------7--7--7--7--|
|-------------------------------------------------------------7--7--7--7--|
|--------------5----------------------------7----------------7--7--7--7--|
|-------5---------5-----------------7---------7-----7-------7--7--7--7--|
|----3----3---------3-----------5-----5---------5----------5--5--5--5--|
|--3-----------------------5--5------------------------------5--5--5--5--|
Ch) B
|--------------7--
|--------------7--
|--------------8--
|--------------9-- x8
|--------------9--
|--------------7—
They all got dead black hearts
A
|--------------5--
|--------------5--
|--------------6--
|--------------7-- x8
|--------------7--
|--------------5--
"We will never look back and we’ll never get far"
G
|--------------3--
|--------------3--
|--------------4--
|--------------5-- x8
|--------------5--
|--------------3--
'Cause if their hearts wont ache
D
|--------------7--
|--------------7--
|--------------7--
|--------------7-- x8
|--------------5--
|--------------5--
Their lives are forsaken
V1)
Am
|--0---------0-------0--
|--1---------2-------1--
|--2----x4--2--x2--2--x2
|--2---------2-------2--
|--0---------0-------0--
|--0---------0-------0--
Your face is haunting me
C
|--0---------0-------0--
|--1---------3-------1--
|--0----x4--0--x2--0--x2
|--2---------2-------2--
|--3---------3-------3--
|--0---------0-------0--
It’s leaving me breathless
E
|--0---------0-------0--
|--0---------0-------0--
|--1----x4--2--x2--1--x2
|--2---------2-------2--
|--2---------2-------2--
|--0---------0-------0--
All that you have done
|--0---------0-------0--
|--0---------0-------0--
|--1----x4--2--x2--1--x2
|--2---------2-------2--
|--2---------2-------2--
|--0---------0-------0--
We will run, (?)

Ch)….

V1)
|--0---------0-------0--
|--1---------2-------1--
|--2----x4--2--x2--2--x2
|--2---------2-------2--
|--0---------0-------0--
|--0---------0-------0--
Your wings have been broken by shadows



|--0---------0-------0--
|--1---------3-------1--
|--0----x4--0--x2--0--x2
|--2---------2-------2--
|--3---------3-------3--
|--0---------0-------0--
I don’t know these feelings that have come over me
|--0---------0-------0--
|--0---------0-------0--
|--1----x4--2--x2--1--x2
|--2---------2-------2--
|--2---------2-------2--
|--0---------0-------0--
This is all that you could ever
|--0---------0-------0--
|--0---------0-------0--
|--1----x4--2--x2--1--x2
|--2---------2-------2--
|--2---------2-------2--
|--0---------0-------0--
All you could ever be to me

Ch) instrumental chorus
|--------------7--
|--------------7--
|--------------8--
|--------------9-- x8
|--------------9--
|--------------7--

|--------------5--
|--------------5--
|--------------6--
|--------------7-- x8
|--------------7--
|--------------5--

|--------------3--
|--------------3--
|--------------4--
|--------------5-- x8
|--------------5--
|--------------3--



|--------------7--
|--------------7--
|--------------7--
|--------------7-- x8
|--------------5--
|--------------5--

‘cuz if our hearts wont wait and our life cant take
‘cuz if our hearts wont wait and our life cant take
‘cuz if our hearts wont wait and our life cant take it
Ch)….

(unnamed song)
Ch)
They all got dead black hearts
"We will never look back and we’ll never get far"
'Cause if their hearts wont ache
Their lives are forsaken

V1)
Your face is haunting me
It’s leaving me breathless
All that you have done
We will run, (?) not sure about that either? )

Ch)
They all got dead black hearts
"We will never look back and we’ll never get far"
'Cause if their hearts wont ache
Their lives are forsaken

V2)
Your wings have been broken by shadows
I don’t know these feelings that have come over me
This is all that you could ever
All you could ever be to me

Ch) instrumental chorus

(not sure about this bit if i should leave it how it was or change it to the new chours bit ????)

‘cuz if our hearts wont wait and our life cant take ?
‘cuz if our hearts wont wait and our life cant take ?
‘cuz if our hearts wont wait and our life cant take it ?

‘Cause if their hearts won’t ache and their lives are ?
‘Cause if their hearts won’t ache and their lives are ?
‘Cause if their hearts won’t ache and their lives are forsaken ?


Ch)
They all got dead black hearts
"We will never look back and we’ll never get far"
'Cause if their hearts wont ache
Their lives are forsaken




need comments
u like it
u dont like it
u like some of it
i dont care tell me anything

>kat

p.s. come on even one we really need a band practice soon we only have like 5 months or so by the time we're back at school andwe need to get them right.......
comments: Leave a comment Previous Entry Share Next Entry


colly_wobbles_
Link:(Link)
Time:2006-12-08 08:11 am (UTC)
Chorus suggestion:

They all got dead black hearts
"We will never look back and we’ll never get far"
'Cause if their hearts wont ache
Their lives are forsaken

... as I said to you on MSN.

*col*
(Reply) (Thread)


colly_wobbles_
Link:(Link)
Time:2006-12-09 06:27 am (UTC)
Yay Kat. We do need lots of practise!

*col*
(Reply) (Thread)

[icon] kats new song new edited version - Col, Linda and Kat
View:Recent Entries.
View:Archive.
View:Friends.
View:Profile.